  0
SECTION
  2
HEADER
  9
$ACADVER
  1
AC1009
  9
$INSBASE
 10
0.0
 20
0.0
 30
0.0
  9
$EXTMIN
 10
22.37564310581925
 20
23.70222551688563
 30
0.0
  9
$EXTMAX
 10
25.51396308396582
 20
26.450480230386962
 30
0.0
  9
$LIMMIN
 10
0.0
 20
0.0
  9
$LIMMAX
 10
17.0
 20
11.0
  9
$ORTHOMODE
 70
     0
  9
$REGENMODE
 70
     1
  9
$FILLMODE
 70
     1
  9
$QTEXTMODE
 70
     0
  9
$MIRRTEXT
 70
     0
  9
$DRAGMODE
 70
     2
  9
$LTSCALE
 40
1.0
  9
$OSMODE
 70
   288
  9
$ATTMODE
 70
     1
  9
$TEXTSIZE
 40
0.2
  9
$TRACEWID
 40
0.05
  9
$TEXTSTYLE
  7
STANDARD
  9
$CLAYER
  8
AM_0
  9
$CELTYPE
  6
BYLAYER
  9
$CECOLOR
 62
   256
  9
$DIMSCALE
 40
1.0
  9
$DIMASZ
 40
0.12
  9
$DIMEXO
 40
0.05
  9
$DIMDLI
 40
0.5
  9
$DIMRND
 40
0.0
  9
$DIMDLE
 40
0.0
  9
$DIMEXE
 40
0.1
  9
$DIMTP
 40
0.1
  9
$DIMTM
 40
0.1
  9
$DIMTXT
 40
0.12
  9
$DIMCEN
 40
0.0
  9
$DIMTSZ
 40
0.0
  9
$DIMTOL
 70
     0
  9
$DIMLIM
 70
     0
  9
$DIMTIH
 70
     1
  9
$DIMTOH
 70
     1
  9
$DIMSE1
 70
     0
  9
$DIMSE2
 70
     0
  9
$DIMTAD
 70
     0
  9
$DIMZIN
 70
     7
  9
$DIMBLK
  1

  9
$DIMASO
 70
     1
  9
$DIMSHO
 70
     1
  9
$DIMPOST
  1

  9
$DIMAPOST
  1
mm
  9
$DIMALT
 70
     0
  9
$DIMALTD
 70
     2
  9
$DIMALTF
 40
25.399999999999999
  9
$DIMLFAC
 40
1.0
  9
$DIMTOFL
 70
     0
  9
$DIMTVP
 40
0.0
  9
$DIMTIX
 70
     0
  9
$DIMSOXD
 70
     0
  9
$DIMSAH
 70
     0
  9
$DIMBLK1
  1

  9
$DIMBLK2
  1

  9
$DIMSTYLE
  2
AM_ANSI
  9
$DIMCLRD
 70
   256
  9
$DIMCLRE
 70
   256
  9
$DIMCLRT
 70
   140
  9
$DIMTFAC
 40
0.71
  9
$DIMGAP
 40
0.06
  9
$LUNITS
 70
     2
  9
$LUPREC
 70
     4
  9
$SKETCHINC
 40
0.1
  9
$FILLETRAD
 40
0.125
  9
$AUNITS
 70
     0
  9
$AUPREC
 70
     0
  9
$MENU
  1
.
  9
$ELEVATION
 40
0.0
  9
$PELEVATION
 40
0.0
  9
$THICKNESS
 40
0.0
  9
$LIMCHECK
 70
     0
  9
$BLIPMODE
 70
     0
  9
$CHAMFERA
 40
0.125
  9
$CHAMFERB
 40
0.125
  9
$SKPOLY
 70
     0
  9
$TDCREATE
 40
2455443.5307986918
  9
$TDUPDATE
 40
2455443.5508207749
  9
$TDINDWG
 40
0.0205212731
  9
$TDUSRTIMER
 40
0.0205212731
  9
$USRTIMER
 70
     1
  9
$ANGBASE
 50
0.0
  9
$ANGDIR
 70
     0
  9
$PDMODE
 70
     0
  9
$PDSIZE
 40
0.0
  9
$PLINEWID
 40
0.0
  9
$COORDS
 70
     2
  9
$SPLFRAME
 70
     0
  9
$SPLINETYPE
 70
     6
  9
$SPLINESEGS
 70
     8
  9
$ATTDIA
 70
     0
  9
$ATTREQ
 70
     1
  9
$HANDLING
 70
     1
  9
$HANDSEED
  5
A0
  9
$SURFTAB1
 70
     6
  9
$SURFTAB2
 70
     6
  9
$SURFTYPE
 70
     6
  9
$SURFU
 70
     6
  9
$SURFV
 70
     6
  9
$UCSNAME
  2

  9
$UCSORG
 10
0.0
 20
0.0
 30
0.0
  9
$UCSXDIR
 10
1.0
 20
0.0
 30
0.0
  9
$UCSYDIR
 10
0.0
 20
1.0
 30
0.0
  9
$PUCSNAME
  2

  9
$PUCSORG
 10
0.0
 20
0.0
 30
0.0
  9
$PUCSXDIR
 10
1.0
 20
0.0
 30
0.0
  9
$PUCSYDIR
 10
0.0
 20
1.0
 30
0.0
  9
$USERI1
 70
     0
  9
$USERI2
 70
     0
  9
$USERI3
 70
     0
  9
$USERI4
 70
     0
  9
$USERI5
 70
     0
  9
$USERR1
 40
0.0
  9
$USERR2
 40
0.0
  9
$USERR3
 40
0.0
  9
$USERR4
 40
0.0
  9
$USERR5
 40
0.0
  9
$WORLDVIEW
 70
     1
  9
$SHADEDGE
 70
     3
  9
$SHADEDIF
 70
    70
  9
$TILEMODE
 70
     1
  9
$MAXACTVP
 70
    64
  9
$PLIMCHECK
 70
     0
  9
$PEXTMIN
 10
1.0000000000000000E+020
 20
1.0000000000000000E+020
 30
1.0000000000000000E+020
  9
$PEXTMAX
 10
-1.0000000000000000E+020
 20
-1.0000000000000000E+020
 30
-1.0000000000000000E+020
  9
$PLIMMIN
 10
0.0
 20
0.0
  9
$PLIMMAX
 10
12.0
 20
9.0
  9
$UNITMODE
 70
     0
  9
$VISRETAIN
 70
     1
  9
$PLINEGEN
 70
     0
  9
$PSLTSCALE
 70
     1
  0
ENDSEC
  0
SECTION
  2
TABLES
  0
TABLE
  2
VPORT
 70
     1
  0
VPORT
  2
*ACTIVE
 70
     0
 10
0.0
 20
0.0
 11
1.0
 21
1.0
 12
24.207053631438381
 22
23.660452696120899
 13
0.0
 23
0.0
 14
0.125
 24
0.125
 15
1.0
 25
1.0
 16
0.0
 26
0.0
 36
1.0
 17
0.0
 27
0.0
 37
0.0
 40
4.3576741747255907
 41
1.219026548672566
 42
50.0
 43
0.0
 44
0.0
 50
0.0
 51
0.0
 71
     0
 72
   100
 73
     1
 74
     3
 75
     0
 76
     0
 77
     0
 78
     0
  0
ENDTAB
  0
TABLE
  2
LTYPE
 70
     1
  0
LTYPE
  2
CONTINUOUS
 70
     0
  3
Solid line
 72
    65
 73
     0
 40
0.0
  0
ENDTAB
  0
TABLE
  2
LAYER
 70
     2
  0
LAYER
  2
0
 70
     0
 62
     7
  6
CONTINUOUS
  0
LAYER
  2
AM_0
 70
     0
 62
     7
  6
CONTINUOUS
  0
ENDTAB
  0
TABLE
  2
STYLE
 70
     1
  0
STYLE
  2
STANDARD
 70
     0
 40
0.0
 41
1.0
 50
0.0
 71
     0
 42
0.2
  3
ROMANS.SHX
  4

  0
ENDTAB
  0
TABLE
  2
VIEW
 70
     0
  0
ENDTAB
  0
TABLE
  2
UCS
 70
     0
  0
ENDTAB
  0
TABLE
  2
APPID
 70
     5
  0
APPID
  2
ACAD
 70
     0
  0
APPID
  2
ACAD_DSTYLE_DIMJOGGED_JOGA
 70
     0
  0
APPID
  2
ACAD_DSTYLE_DIMJAG
 70
     0
  0
APPID
  2
ACAD_DSTYLE_DIMBREAK
 70
     0
  0
APPID
  2
ACAD_NAV_VCDISPLAY
 70
     0
  0
ENDTAB
  0
TABLE
  2
DIMSTYLE
 70
     1
  0
DIMSTYLE
  2
AM_ANSI
 70
     0
  3

  4
mm
  5

  6

  7

 40
1.0
 41
0.12
 42
0.05
 43
0.5
 44
0.1
 45
0.0
 46
0.0
 47
0.1
 48
0.1
140
0.12
141
0.0
142
0.0
143
25.399999999999999
144
1.0
145
0.0
146
0.71
147
0.06
 71
     0
 72
     0
 73
     1
 74
     1
 75
     0
 76
     0
 77
     0
 78
     7
170
     0
171
     2
172
     0
173
     0
174
     0
175
     0
176
   256
177
   256
178
   140
  0
ENDTAB
  0
ENDSEC
  0
SECTION
  2
BLOCKS
  0
BLOCK
  8
0
  2
$MODEL_SPACE
 70
     0
 10
0.0
 20
0.0
 30
0.0
  3
$MODEL_SPACE
  1

  0
ENDBLK
  5
F
  8
0
  0
BLOCK
 67
     1
  8
0
  2
$PAPER_SPACE
 70
     0
 10
0.0
 20
0.0
 30
0.0
  3
$PAPER_SPACE
  1

  0
ENDBLK
  5
16
 67
     1
  8
0
  0
ENDSEC
  0
SECTION
  2
ENTITIES
  0
ARC
  5
64
  8
0
 10
24.863209721932652
 20
24.028787791603861
 30
0.0
 40
0.0670516869131318
 50
179.9999999999969
 51
227.24563223744639
  0
LINE
  5
65
  8
0
 10
24.883415631100391
 20
23.91878939800856
 30
0.0
 11
24.817691233529128
 21
23.979553698422869
 31
0.0
  0
ARC
  5
66
  8
0
 10
25.019186975563329
 20
24.06564355022336
 30
0.0
 40
0.2000000000000016
 50
139.71940735797409
 51
227.24563223745039
  0
LINE
  5
67
  8
0
 10
24.82398321299204
 20
24.161582645105572
 30
0.0
 11
24.86660950195154
 21
24.19494983215213
 31
0.0
  0
ARC
  5
68
  8
0
 10
24.868693857294431
 20
24.104465188937048
 30
0.0
 40
0.0725358222749151
 50
128.05327944647399
 51
180.00000000000281
  0
LINE
  5
69
  8
0
 10
24.79615803501952
 20
24.028787791603872
 30
0.0
 11
24.79615803501952
 21
24.104465188937048
 31
0.0
  0
ARC
  5
6A
  8
0
 10
22.699797105996161
 20
24.028787791603872
 30
0.0
 40
0.067051686913132
 50
312.75436776254929
 51
0.0
  0
LINE
  5
6B
  8
0
 10
22.679591196828419
 20
23.91878939800856
 30
0.0
 11
22.745315594399681
 21
23.979553698422869
 31
0.0
  0
ARC
  5
6C
  8
0
 10
22.54381985236547
 20
24.06564355022336
 30
0.0
 40
0.2000000000000043
 50
312.75436776255032
 51
40.28059264202524
  0
LINE
  5
6D
  8
0
 10
22.739023614936769
 20
24.161582645105572
 30
0.0
 11
22.696397325977269
 21
24.19494983215213
 31
0.0
  0
ARC
  5
6E
  8
0
 10
22.694312970634371
 20
24.104465188937048
 30
0.0
 40
0.0725358222749151
 50
359.99999999999721
 51
51.946720553525999
  0
LINE
  5
6F
  8
0
 10
22.76684879290929
 20
24.028787791603872
 30
0.0
 11
22.76684879290929
 21
24.104465188937048
 31
0.0
  0
ARC
  5
70
  8
0
 10
22.6229847776345
 20
24.126741132885439
 30
0.0
 40
0.0999999999999968
 50
37.660095075367472
 51
43.655485117052891
  0
LINE
  5
71
  8
0
 62
     0
 10
22.84535422618702
 20
24.580262513576809
 30
0.0
 11
24.71765260174179
 21
24.580262513576809
 31
0.0
  0
ARC
  5
72
  8
0
 62
     0
 10
22.84535422618703
 20
24.338911701354188
 30
0.0
 40
0.2413508122226227
 50
90.000000000000824
 51
218.64482262630099
  0
ARC
  5
73
  8
0
 62
     0
 10
22.734954694470581
 20
24.250639420808259
 30
0.0
 40
0.1000000000000209
 50
218.64482262628209
 51
224.06493695141529
  0
ARC
  5
74
  8
0
 62
     0
 10
22.54381985236547
 20
24.065643550223349
 30
0.0
 40
0.1659999999999984
 50
309.60428097944248
 51
44.064936951434468
  0
ARC
  5
75
  8
0
 62
     0
 10
22.66100986659406
 20
23.92509768957893
 30
0.0
 40
0.017006452629663
 50
131.94805595454491
 51
309.82203881355241
  0
ARC
  5
76
  8
0
 62
     0
 10
22.54381985236547
 20
24.06564355022336
 30
0.0
 40
0.2000000000000009
 50
309.82203881354332
 51
37.660095075368069
  0
ARC
  5
77
  8
0
 62
     0
 10
22.6229847776345
 20
24.126741132885449
 30
0.0
 40
0.0999999999999914
 50
37.660095075369568
 51
43.655485117055072
  0
ARC
  5
78
  8
0
 62
     0
 10
22.84535422618702
 20
24.338911701354181
 30
0.0
 40
0.2073508122226215
 50
89.999999999999019
 51
223.65548511705379
  0
LINE
  5
79
  8
0
 62
     0
 10
24.71765260174179
 20
24.54626251357681
 30
0.0
 11
22.84535422618702
 21
24.54626251357681
 31
0.0
  0
ARC
  5
7A
  8
0
 62
     0
 10
24.71765260174179
 20
24.338911701354181
 30
0.0
 40
0.2073508122226165
 50
316.34451488294621
 51
90.0
  0
ARC
  5
7B
  8
0
 62
     0
 10
24.940022050294299
 20
24.126741132885481
 30
0.0
 40
0.0999999999999717
 50
136.3445148829596
 51
142.33990492464491
  0
ARC
  5
7C
  8
0
 62
     0
 10
25.019186975563329
 20
24.06564355022336
 30
0.0
 40
0.2
 50
142.3399049246313
 51
230.17796118645671
  0
ARC
  5
7D
  8
0
 62
     0
 10
24.901996961334739
 20
23.92509768957893
 30
0.0
 40
0.0170064526296642
 50
230.17796118644759
 51
52.303978327502733
  0
ARC
  5
7E
  8
0
 62
     0
 10
25.019186975563329
 20
24.065643550223349
 30
0.0
 40
0.1659999999999985
 50
135.93506304856459
 51
229.9602033523517
  0
ARC
  5
7F
  8
0
 62
     0
 10
24.828052133458229
 20
24.250639420808259
 30
0.0
 40
0.1000000000000209
 50
315.93506304858471
 51
321.35517737371788
  0
ARC
  5
80
  8
0
 62
     0
 10
24.71765260174179
 20
24.338911701354188
 30
0.0
 40
0.2413508122226204
 50
321.35517737369838
 51
90.0
  0
ENDSEC
  0
EOF
