  0
SECTION
  2
HEADER
  9
$ACADVER
  1
AC1009
  9
$INSBASE
 10
0.0
 20
0.0
 30
0.0
  9
$EXTMIN
 10
21.165490652511039
 20
25.235674687310659
 30
-0.0000000349181948
  9
$EXTMAX
 10
22.7633318082549
 20
27.2143163152999
 30
0.0000000814935746
  9
$LIMMIN
 10
0.0
 20
0.0
  9
$LIMMAX
 10
17.0
 20
11.0
  9
$ORTHOMODE
 70
     0
  9
$REGENMODE
 70
     1
  9
$FILLMODE
 70
     1
  9
$QTEXTMODE
 70
     0
  9
$MIRRTEXT
 70
     0
  9
$DRAGMODE
 70
     2
  9
$LTSCALE
 40
1.0
  9
$OSMODE
 70
   288
  9
$ATTMODE
 70
     1
  9
$TEXTSIZE
 40
0.2
  9
$TRACEWID
 40
0.05
  9
$TEXTSTYLE
  7
STANDARD
  9
$CLAYER
  8
AM_0
  9
$CELTYPE
  6
BYLAYER
  9
$CECOLOR
 62
   256
  9
$DIMSCALE
 40
1.0
  9
$DIMASZ
 40
0.12
  9
$DIMEXO
 40
0.05
  9
$DIMDLI
 40
0.5
  9
$DIMRND
 40
0.0
  9
$DIMDLE
 40
0.0
  9
$DIMEXE
 40
0.1
  9
$DIMTP
 40
0.1
  9
$DIMTM
 40
0.1
  9
$DIMTXT
 40
0.12
  9
$DIMCEN
 40
0.0
  9
$DIMTSZ
 40
0.0
  9
$DIMTOL
 70
     0
  9
$DIMLIM
 70
     0
  9
$DIMTIH
 70
     1
  9
$DIMTOH
 70
     1
  9
$DIMSE1
 70
     0
  9
$DIMSE2
 70
     0
  9
$DIMTAD
 70
     0
  9
$DIMZIN
 70
     7
  9
$DIMBLK
  1

  9
$DIMASO
 70
     1
  9
$DIMSHO
 70
     1
  9
$DIMPOST
  1

  9
$DIMAPOST
  1
mm
  9
$DIMALT
 70
     0
  9
$DIMALTD
 70
     2
  9
$DIMALTF
 40
25.399999999999999
  9
$DIMLFAC
 40
1.0
  9
$DIMTOFL
 70
     0
  9
$DIMTVP
 40
0.0
  9
$DIMTIX
 70
     0
  9
$DIMSOXD
 70
     0
  9
$DIMSAH
 70
     0
  9
$DIMBLK1
  1

  9
$DIMBLK2
  1

  9
$DIMSTYLE
  2
AM_ANSI
  9
$DIMCLRD
 70
   256
  9
$DIMCLRE
 70
   256
  9
$DIMCLRT
 70
   140
  9
$DIMTFAC
 40
0.71
  9
$DIMGAP
 40
0.06
  9
$LUNITS
 70
     2
  9
$LUPREC
 70
     4
  9
$SKETCHINC
 40
0.1
  9
$FILLETRAD
 40
0.125
  9
$AUNITS
 70
     0
  9
$AUPREC
 70
     0
  9
$MENU
  1
.
  9
$ELEVATION
 40
0.0
  9
$PELEVATION
 40
0.0
  9
$THICKNESS
 40
0.0
  9
$LIMCHECK
 70
     0
  9
$BLIPMODE
 70
     0
  9
$CHAMFERA
 40
0.125
  9
$CHAMFERB
 40
0.125
  9
$SKPOLY
 70
     0
  9
$TDCREATE
 40
2455420.4595006248
  9
$TDUPDATE
 40
2456149.7403733339
  9
$TDINDWG
 40
0.0051730903
  9
$TDUSRTIMER
 40
0.0051730903
  9
$USRTIMER
 70
     1
  9
$ANGBASE
 50
0.0
  9
$ANGDIR
 70
     0
  9
$PDMODE
 70
     0
  9
$PDSIZE
 40
0.0
  9
$PLINEWID
 40
0.0
  9
$COORDS
 70
     2
  9
$SPLFRAME
 70
     0
  9
$SPLINETYPE
 70
     6
  9
$SPLINESEGS
 70
     8
  9
$ATTDIA
 70
     0
  9
$ATTREQ
 70
     1
  9
$HANDLING
 70
     1
  9
$HANDSEED
  5
B0
  9
$SURFTAB1
 70
     6
  9
$SURFTAB2
 70
     6
  9
$SURFTYPE
 70
     6
  9
$SURFU
 70
     6
  9
$SURFV
 70
     6
  9
$UCSNAME
  2

  9
$UCSORG
 10
0.0
 20
0.0
 30
0.0
  9
$UCSXDIR
 10
1.0
 20
0.0
 30
0.0
  9
$UCSYDIR
 10
0.0
 20
1.0
 30
0.0
  9
$PUCSNAME
  2

  9
$PUCSORG
 10
0.0
 20
0.0
 30
0.0
  9
$PUCSXDIR
 10
1.0
 20
0.0
 30
0.0
  9
$PUCSYDIR
 10
0.0
 20
1.0
 30
0.0
  9
$USERI1
 70
     0
  9
$USERI2
 70
     0
  9
$USERI3
 70
     0
  9
$USERI4
 70
     0
  9
$USERI5
 70
     0
  9
$USERR1
 40
0.0
  9
$USERR2
 40
0.0
  9
$USERR3
 40
0.0
  9
$USERR4
 40
0.0
  9
$USERR5
 40
0.0
  9
$WORLDVIEW
 70
     1
  9
$SHADEDGE
 70
     3
  9
$SHADEDIF
 70
    70
  9
$TILEMODE
 70
     1
  9
$MAXACTVP
 70
    64
  9
$PLIMCHECK
 70
     0
  9
$PEXTMIN
 10
1.0000000000000000E+020
 20
1.0000000000000000E+020
 30
1.0000000000000000E+020
  9
$PEXTMAX
 10
-1.0000000000000000E+020
 20
-1.0000000000000000E+020
 30
-1.0000000000000000E+020
  9
$PLIMMIN
 10
0.0
 20
0.0
  9
$PLIMMAX
 10
12.0
 20
9.0
  9
$UNITMODE
 70
     0
  9
$VISRETAIN
 70
     1
  9
$PLINEGEN
 70
     0
  9
$PSLTSCALE
 70
     1
  0
ENDSEC
  0
SECTION
  2
TABLES
  0
TABLE
  2
VPORT
 70
     1
  0
VPORT
  2
*ACTIVE
 70
     0
 10
0.0
 20
0.0
 11
1.0
 21
1.0
 12
21.26328639745714
 22
25.59692437142666
 13
0.0
 23
0.0
 14
0.125
 24
0.125
 15
1.0
 25
1.0
 16
0.0
 26
0.0
 36
1.0
 17
0.0
 27
0.0
 37
0.0
 40
4.9453629197797637
 41
1.166297117516629
 42
50.0
 43
0.0
 44
0.0
 50
0.0
 51
0.0
 71
     0
 72
   100
 73
     1
 74
     3
 75
     0
 76
     0
 77
     0
 78
     0
  0
ENDTAB
  0
TABLE
  2
LTYPE
 70
     1
  0
LTYPE
  2
CONTINUOUS
 70
     0
  3
Solid line
 72
    65
 73
     0
 40
0.0
  0
ENDTAB
  0
TABLE
  2
LAYER
 70
     2
  0
LAYER
  2
0
 70
     0
 62
     7
  6
CONTINUOUS
  0
LAYER
  2
AM_0
 70
     0
 62
     7
  6
CONTINUOUS
  0
ENDTAB
  0
TABLE
  2
STYLE
 70
     1
  0
STYLE
  2
STANDARD
 70
     0
 40
0.0
 41
1.0
 50
0.0
 71
     0
 42
0.2
  3
ROMANS.SHX
  4

  0
ENDTAB
  0
TABLE
  2
VIEW
 70
     0
  0
ENDTAB
  0
TABLE
  2
UCS
 70
     0
  0
ENDTAB
  0
TABLE
  2
APPID
 70
     6
  0
APPID
  2
ACAD
 70
     0
  0
APPID
  2
ACAD_DSTYLE_DIMJOGGED_JOGA
 70
     0
  0
APPID
  2
ACAD_DSTYLE_DIMJAG
 70
     0
  0
APPID
  2
ACAD_DSTYLE_DIMBREAK
 70
     0
  0
APPID
  2
ACAD_PSEXT
 70
     0
  0
APPID
  2
ACAD_NAV_VCDISPLAY
 70
     0
  0
ENDTAB
  0
TABLE
  2
DIMSTYLE
 70
     1
  0
DIMSTYLE
  2
AM_ANSI
 70
     0
  3

  4
mm
  5

  6

  7

 40
1.0
 41
0.12
 42
0.05
 43
0.5
 44
0.1
 45
0.0
 46
0.0
 47
0.1
 48
0.1
140
0.12
141
0.0
142
0.0
143
25.399999999999999
144
1.0
145
0.0
146
0.71
147
0.06
 71
     0
 72
     0
 73
     1
 74
     1
 75
     0
 76
     0
 77
     0
 78
     7
170
     0
171
     2
172
     0
173
     0
174
     0
175
     0
176
   256
177
   256
178
   140
  0
ENDTAB
  0
ENDSEC
  0
SECTION
  2
BLOCKS
  0
BLOCK
  8
0
  2
$MODEL_SPACE
 70
     0
 10
0.0
 20
0.0
 30
0.0
  3
$MODEL_SPACE
  1

  0
ENDBLK
  5
F
  8
0
  0
BLOCK
 67
     1
  8
0
  2
$PAPER_SPACE
 70
     0
 10
0.0
 20
0.0
 30
0.0
  3
$PAPER_SPACE
  1

  0
ENDBLK
  5
17
 67
     1
  8
0
  0
ENDSEC
  0
SECTION
  2
ENTITIES
  0
LINE
  5
65
  8
0
 62
     0
 10
21.661807821187139
 20
25.925876318734399
 30
0.0
 11
21.661807821187139
 21
26.005876318734401
 31
0.0
  0
ARC
  5
66
  8
0
 62
     0
 10
21.646807821187139
 20
25.925876318734399
 30
0.0
 40
0.0150000000000006
 50
270.0
 51
0.0
  0
LINE
  5
67
  8
0
 62
     0
 10
21.284307821187141
 20
25.910876318734399
 30
0.0
 11
21.646807821187139
 21
25.910876318734399
 31
0.0
  0
ARC
  5
68
  8
0
 62
     0
 10
21.284307821187141
 20
25.9058763187344
 30
0.0
 40
0.005000000000001
 50
90.0
 51
187.20338515293
  0
LINE
  5
69
  8
0
 62
     0
 10
21.31903157649943
 20
25.591265033467941
 30
0.0
 11
21.27934728471395
 21
25.905249359486749
 31
0.0
  0
ARC
  5
6A
  8
0
 62
     0
 10
21.284307821187141
 20
25.586876318734401
 30
0.0
 40
0.0349999999999992
 50
328.65501120033463
 51
7.2033851529076296
  0
LINE
  5
6B
  8
0
 62
     0
 10
21.279118580771691
 20
25.51107347060908
 30
0.0
 11
21.314199593551091
 21
25.568669673108651
 31
0.0
  0
ARC
  5
6C
  8
0
 62
     0
 10
21.266307821187141
 20
25.518876318734399
 30
0.0
 40
0.0150000000000027
 50
148.6550112003417
 51
328.65501120034622
  0
LINE
  5
6D
  8
0
 62
     0
 10
21.288578074381991
 20
25.58427536935929
 30
0.0
 11
21.253497061602591
 21
25.526679166859719
 31
0.0
  0
ARC
  5
6E
  8
0
 62
     0
 10
21.284307821187141
 20
25.586876318734401
 30
0.0
 40
0.0050000000000005
 50
328.65501120033463
 51
7.2033851528895916
  0
LINE
  5
6F
  8
0
 62
     0
 10
21.249584065874849
 20
25.901487604000849
 30
0.0
 11
21.289268357660319
 21
25.587503277982041
 31
0.0
  0
ARC
  5
70
  8
0
 62
     0
 10
21.284307821187141
 20
25.905876318734389
 30
0.0
 40
0.0350000000000037
 50
90.0
 51
187.2033851529076
  0
LINE
  5
71
  8
0
 62
     0
 10
21.626807821187139
 20
25.940876318734389
 30
0.0
 11
21.284307821187141
 21
25.9408763187344
 31
0.0
  0
ARC
  5
72
  8
0
 62
     0
 10
21.626807821187139
 20
25.945876318734388
 30
0.0
 40
0.004999999999999
 50
270.0
 51
0.0000000000407111
  0
LINE
  5
73
  8
0
 62
     0
 10
21.631807821187142
 20
26.02587631873439
 30
0.0
 11
21.631807821187142
 21
25.945876318734388
 31
0.0
  0
ARC
  5
74
  8
0
 62
     0
 10
21.646807821187139
 20
26.02587631873439
 30
0.0
 40
0.0150000000000006
 50
90.0
 51
180.0
  0
LINE
  5
75
  8
0
 62
     0
 10
21.991807821187141
 20
26.040876318734401
 30
0.0
 11
21.646807821187139
 21
26.040876318734401
 31
0.0
  0
ARC
  5
76
  8
0
 62
     0
 10
21.991807821187141
 20
26.02587631873439
 30
0.0
 40
0.0150000000000006
 50
0.0
 51
90.0
  0
LINE
  5
77
  8
0
 62
     0
 10
22.006807821187142
 20
25.945876318734388
 30
0.0
 11
22.006807821187142
 21
26.02587631873439
 31
0.0
  0
ARC
  5
78
  8
0
 62
     0
 10
22.011807821187141
 20
25.945876318734388
 30
0.0
 40
0.004999999999999
 50
179.9999999999593
 51
270.0
  0
LINE
  5
79
  8
0
 62
     0
 10
22.354307821187142
 20
25.940876318734389
 30
0.0
 11
22.011807821187141
 21
25.940876318734389
 31
0.0
  0
ARC
  5
7A
  8
0
 62
     0
 10
22.354307821187142
 20
25.905876318734389
 30
0.0
 40
0.0349999999999979
 50
352.79661484709169
 51
90.000000000005798
  0
LINE
  5
7B
  8
0
 62
     0
 10
22.349347284713961
 20
25.587503277982041
 30
0.0
 11
22.389031576499431
 21
25.901487604000849
 31
0.0
  0
ARC
  5
7C
  8
0
 62
     0
 10
22.354307821187142
 20
25.586876318734401
 30
0.0
 40
0.0049999999999999
 50
172.79661484711039
 51
211.3449887996654
  0
LINE
  5
7D
  8
0
 62
     0
 10
22.385118580771689
 20
25.526679166859719
 30
0.0
 11
22.350037567992288
 21
25.58427536935929
 31
0.0
  0
ARC
  5
7E
  8
0
 62
     0
 10
22.372307821187139
 20
25.518876318734399
 30
0.0
 40
0.0149999999999978
 50
211.34498879965381
 51
31.344988799658339
  0
LINE
  5
7F
  8
0
 62
     0
 10
22.324416048823188
 20
25.568669673108651
 30
0.0
 11
22.359497061602578
 21
25.51107347060908
 31
0.0
  0
ARC
  5
80
  8
0
 62
     0
 10
22.354307821187142
 20
25.586876318734401
 30
0.0
 40
0.0350000000000014
 50
172.79661484709229
 51
211.3449887996654
  0
LINE
  5
81
  8
0
 62
     0
 10
22.359268357660319
 20
25.905249359486749
 30
0.0
 11
22.319584065874849
 21
25.591265033467941
 31
0.0
  0
ARC
  5
82
  8
0
 62
     0
 10
22.354307821187142
 20
25.9058763187344
 30
0.0
 40
0.004999999999999
 50
352.79661484706997
 51
90.0
  0
LINE
  5
83
  8
0
 62
     0
 10
21.991807821187141
 20
25.910876318734399
 30
0.0
 11
22.354307821187142
 21
25.910876318734399
 31
0.0
  0
ARC
  5
84
  8
0
 62
     0
 10
21.991807821187141
 20
25.925876318734399
 30
0.0
 40
0.0150000000000006
 50
180.0
 51
270.0
  0
LINE
  5
85
  8
0
 62
     0
 10
21.97680782118714
 20
26.005876318734401
 30
0.0
 11
21.97680782118714
 21
25.925876318734399
 31
0.0
  0
ARC
  5
86
  8
0
 62
     0
 10
21.971807821187141
 20
26.005876318734401
 30
0.0
 40
0.0050000000000026
 50
0.0
 51
90.0
  0
LINE
  5
87
  8
0
 62
     0
 10
21.666807821187142
 20
26.0108763187344
 30
0.0
 11
21.971807821187141
 21
26.0108763187344
 31
0.0
  0
ARC
  5
88
  8
0
 62
     0
 10
21.666807821187142
 20
26.005876318734401
 30
0.0
 40
0.004999999999999
 50
90.0
 51
180.0
  0
LINE
  5
89
  8
0
 10
21.31903157649943
 20
25.591265033467941
 30
0.0
 11
21.293953206593471
 21
25.78968649239529
 31
0.0
  0
ARC
  5
8A
  8
0
 10
21.31840461725178
 20
25.596225569941119
 30
0.0
 40
0.004999999999997
 50
277.20338515288961
 51
7.2033851528946959
  0
LINE
  5
8B
  8
0
 10
21.29954070231431
 20
25.78535291516976
 30
0.0
 11
21.323365153724961
 21
25.596852529188769
 31
0.0
  0
ARC
  5
8C
  8
0
 10
21.294580165841118
 20
25.784725955922109
 30
0.0
 40
0.0050000000000005
 50
7.2033851528895916
 51
97.203385152889595
  0
LINE
  5
8D
  8
0
 10
22.319584065874849
 20
25.591265033467941
 30
0.0
 11
22.344662435780808
 21
25.78968649239529
 31
0.0
  0
ARC
  5
8E
  8
0
 10
22.3202110251225
 20
25.596225569941119
 30
0.0
 40
0.004999999999997
 50
172.7966148471053
 51
262.79661484711039
  0
LINE
  5
8F
  8
0
 10
22.33907494005997
 20
25.78535291516976
 30
0.0
 11
22.315250488649319
 21
25.596852529188769
 31
0.0
  0
ARC
  5
90
  8
0
 10
22.344035476533161
 20
25.784725955922109
 30
0.0
 40
0.0050000000000005
 50
82.796614847110405
 51
172.79661484711039
  0
ENDSEC
  0
EOF
