  0
SECTION
  2
HEADER
  9
$ACADVER
  1
AC1009
  9
$INSBASE
 10
0.0
 20
0.0
 30
0.0
  9
$EXTMIN
 10
22.62849973078303
 20
21.90955843534903
 30
-0.0015258207003583
  9
$EXTMAX
 10
24.696343202749119
 20
23.70500293998639
 30
0.0000000349246037
  9
$LIMMIN
 10
0.0
 20
0.0
  9
$LIMMAX
 10
17.0
 20
11.0
  9
$ORTHOMODE
 70
     0
  9
$REGENMODE
 70
     1
  9
$FILLMODE
 70
     1
  9
$QTEXTMODE
 70
     0
  9
$MIRRTEXT
 70
     0
  9
$DRAGMODE
 70
     2
  9
$LTSCALE
 40
1.0
  9
$OSMODE
 70
   288
  9
$ATTMODE
 70
     1
  9
$TEXTSIZE
 40
0.2
  9
$TRACEWID
 40
0.05
  9
$TEXTSTYLE
  7
STANDARD
  9
$CLAYER
  8
AM_0
  9
$CELTYPE
  6
BYLAYER
  9
$CECOLOR
 62
   256
  9
$DIMSCALE
 40
1.0
  9
$DIMASZ
 40
0.12
  9
$DIMEXO
 40
0.05
  9
$DIMDLI
 40
0.5
  9
$DIMRND
 40
0.0
  9
$DIMDLE
 40
0.0
  9
$DIMEXE
 40
0.1
  9
$DIMTP
 40
0.1
  9
$DIMTM
 40
0.1
  9
$DIMTXT
 40
0.12
  9
$DIMCEN
 40
0.0
  9
$DIMTSZ
 40
0.0
  9
$DIMTOL
 70
     0
  9
$DIMLIM
 70
     0
  9
$DIMTIH
 70
     1
  9
$DIMTOH
 70
     1
  9
$DIMSE1
 70
     0
  9
$DIMSE2
 70
     0
  9
$DIMTAD
 70
     0
  9
$DIMZIN
 70
     7
  9
$DIMBLK
  1

  9
$DIMASO
 70
     1
  9
$DIMSHO
 70
     1
  9
$DIMPOST
  1

  9
$DIMAPOST
  1
mm
  9
$DIMALT
 70
     0
  9
$DIMALTD
 70
     2
  9
$DIMALTF
 40
25.399999999999999
  9
$DIMLFAC
 40
1.0
  9
$DIMTOFL
 70
     0
  9
$DIMTVP
 40
0.0
  9
$DIMTIX
 70
     0
  9
$DIMSOXD
 70
     0
  9
$DIMSAH
 70
     0
  9
$DIMBLK1
  1

  9
$DIMBLK2
  1

  9
$DIMSTYLE
  2
AM_ANSI
  9
$DIMCLRD
 70
   256
  9
$DIMCLRE
 70
   256
  9
$DIMCLRT
 70
   140
  9
$DIMTFAC
 40
0.71
  9
$DIMGAP
 40
0.06
  9
$LUNITS
 70
     2
  9
$LUPREC
 70
     4
  9
$SKETCHINC
 40
0.1
  9
$FILLETRAD
 40
0.125
  9
$AUNITS
 70
     0
  9
$AUPREC
 70
     0
  9
$MENU
  1
.
  9
$ELEVATION
 40
0.0
  9
$PELEVATION
 40
0.0
  9
$THICKNESS
 40
0.0
  9
$LIMCHECK
 70
     0
  9
$BLIPMODE
 70
     0
  9
$CHAMFERA
 40
0.125
  9
$CHAMFERB
 40
0.125
  9
$SKPOLY
 70
     0
  9
$TDCREATE
 40
2455418.4483519099
  9
$TDUPDATE
 40
2456149.737887546
  9
$TDINDWG
 40
0.0041564468
  9
$TDUSRTIMER
 40
0.0041564468
  9
$USRTIMER
 70
     1
  9
$ANGBASE
 50
0.0
  9
$ANGDIR
 70
     0
  9
$PDMODE
 70
     0
  9
$PDSIZE
 40
0.0
  9
$PLINEWID
 40
0.0
  9
$COORDS
 70
     2
  9
$SPLFRAME
 70
     0
  9
$SPLINETYPE
 70
     6
  9
$SPLINESEGS
 70
     8
  9
$ATTDIA
 70
     0
  9
$ATTREQ
 70
     1
  9
$HANDLING
 70
     1
  9
$HANDSEED
  5
A7
  9
$SURFTAB1
 70
     6
  9
$SURFTAB2
 70
     6
  9
$SURFTYPE
 70
     6
  9
$SURFU
 70
     6
  9
$SURFV
 70
     6
  9
$UCSNAME
  2

  9
$UCSORG
 10
0.0
 20
0.0
 30
0.0
  9
$UCSXDIR
 10
1.0
 20
0.0
 30
0.0
  9
$UCSYDIR
 10
0.0
 20
1.0
 30
0.0
  9
$PUCSNAME
  2

  9
$PUCSORG
 10
0.0
 20
0.0
 30
0.0
  9
$PUCSXDIR
 10
1.0
 20
0.0
 30
0.0
  9
$PUCSYDIR
 10
0.0
 20
1.0
 30
0.0
  9
$USERI1
 70
     0
  9
$USERI2
 70
     0
  9
$USERI3
 70
     0
  9
$USERI4
 70
     0
  9
$USERI5
 70
     0
  9
$USERR1
 40
0.0
  9
$USERR2
 40
0.0
  9
$USERR3
 40
0.0
  9
$USERR4
 40
0.0
  9
$USERR5
 40
0.0
  9
$WORLDVIEW
 70
     1
  9
$SHADEDGE
 70
     3
  9
$SHADEDIF
 70
    70
  9
$TILEMODE
 70
     1
  9
$MAXACTVP
 70
    64
  9
$PLIMCHECK
 70
     0
  9
$PEXTMIN
 10
1.0000000000000000E+020
 20
1.0000000000000000E+020
 30
1.0000000000000000E+020
  9
$PEXTMAX
 10
-1.0000000000000000E+020
 20
-1.0000000000000000E+020
 30
-1.0000000000000000E+020
  9
$PLIMMIN
 10
0.0
 20
0.0
  9
$PLIMMAX
 10
12.0
 20
9.0
  9
$UNITMODE
 70
     0
  9
$VISRETAIN
 70
     1
  9
$PLINEGEN
 70
     0
  9
$PSLTSCALE
 70
     1
  0
ENDSEC
  0
SECTION
  2
TABLES
  0
TABLE
  2
VPORT
 70
     1
  0
VPORT
  2
*ACTIVE
 70
     0
 10
0.0
 20
0.0
 11
1.0
 21
1.0
 12
23.353052677642559
 22
22.18551911483614
 13
0.0
 23
0.0
 14
0.125
 24
0.125
 15
1.0
 25
1.0
 16
0.0
 26
0.0
 36
1.0
 17
0.0
 27
0.0
 37
0.0
 40
2.8194351707290468
 41
1.2482100238663481
 42
50.0
 43
0.0
 44
0.0
 50
0.0
 51
0.0
 71
     0
 72
   100
 73
     1
 74
     3
 75
     0
 76
     0
 77
     0
 78
     0
  0
ENDTAB
  0
TABLE
  2
LTYPE
 70
     1
  0
LTYPE
  2
CONTINUOUS
 70
     0
  3
Solid line
 72
    65
 73
     0
 40
0.0
  0
ENDTAB
  0
TABLE
  2
LAYER
 70
     2
  0
LAYER
  2
0
 70
     0
 62
     7
  6
CONTINUOUS
  0
LAYER
  2
AM_0
 70
     0
 62
     7
  6
CONTINUOUS
  0
ENDTAB
  0
TABLE
  2
STYLE
 70
     1
  0
STYLE
  2
STANDARD
 70
     0
 40
0.0
 41
1.0
 50
0.0
 71
     0
 42
0.2
  3
ROMANS.SHX
  4

  0
ENDTAB
  0
TABLE
  2
VIEW
 70
     0
  0
ENDTAB
  0
TABLE
  2
UCS
 70
     0
  0
ENDTAB
  0
TABLE
  2
APPID
 70
     6
  0
APPID
  2
ACAD
 70
     0
  0
APPID
  2
ACAD_DSTYLE_DIMJOGGED_JOGA
 70
     0
  0
APPID
  2
ACAD_DSTYLE_DIMJAG
 70
     0
  0
APPID
  2
ACAD_DSTYLE_DIMBREAK
 70
     0
  0
APPID
  2
ACAD_PSEXT
 70
     0
  0
APPID
  2
ACAD_NAV_VCDISPLAY
 70
     0
  0
ENDTAB
  0
TABLE
  2
DIMSTYLE
 70
     1
  0
DIMSTYLE
  2
AM_ANSI
 70
     0
  3

  4
mm
  5

  6

  7

 40
1.0
 41
0.12
 42
0.05
 43
0.5
 44
0.1
 45
0.0
 46
0.0
 47
0.1
 48
0.1
140
0.12
141
0.0
142
0.0
143
25.399999999999999
144
1.0
145
0.0
146
0.71
147
0.06
 71
     0
 72
     0
 73
     1
 74
     1
 75
     0
 76
     0
 77
     0
 78
     7
170
     0
171
     2
172
     0
173
     0
174
     0
175
     0
176
   256
177
   256
178
   140
  0
ENDTAB
  0
ENDSEC
  0
SECTION
  2
BLOCKS
  0
BLOCK
  8
0
  2
$MODEL_SPACE
 70
     0
 10
0.0
 20
0.0
 30
0.0
  3
$MODEL_SPACE
  1

  0
ENDBLK
  5
F
  8
0
  0
BLOCK
 67
     1
  8
0
  2
$PAPER_SPACE
 70
     0
 10
0.0
 20
0.0
 30
0.0
  3
$PAPER_SPACE
  1

  0
ENDBLK
  5
17
 67
     1
  8
0
  0
ENDSEC
  0
SECTION
  2
ENTITIES
  0
LINE
  5
65
  8
0
 10
22.752342653956092
 20
22.534443093261199
 30
0.0
 11
22.664154894334501
 21
22.568295202510281
 31
0.0
  0
ARC
  5
66
  8
0
 10
22.749654894334508
 20
22.527441240062469
 30
0.0
 40
0.0075000000000013
 50
248.99999999999849
 51
69.000000000023817
  0
LINE
  5
67
  8
0
 10
22.664154894334501
 20
22.552228027605722
 30
0.0
 11
22.746967134712911
 21
22.520439386863739
 31
0.0
  0
LINE
  5
68
  8
0
 10
23.96596644520579
 20
22.534443093261199
 30
0.0
 11
24.05415420482738
 21
22.568295202510281
 31
0.0
  0
ARC
  5
69
  8
0
 10
23.968654204827381
 20
22.527441240062469
 30
0.0
 40
0.0075000000000013
 50
110.9999999999762
 51
291.00000000000148
  0
LINE
  5
6A
  8
0
 10
24.05415420482738
 20
22.552228027605722
 30
0.0
 11
23.971341964448971
 21
22.520439386863739
 31
0.0
  0
LINE
  5
6B
  8
0
 10
24.05415420482738
 20
22.568295202510281
 30
0.0
 11
24.05415420482738
 21
22.552228027605722
 31
0.0
  0
ARC
  5
6C
  8
0
 62
     0
 10
24.071654204827379
 20
22.572648297326332
 30
0.0
 40
0.0174999999999983
 50
0.0
 51
180.0
  0
LINE
  5
6D
  8
0
 62
     0
 10
24.089154204827391
 20
21.939880069180902
 30
0.0
 11
24.089154204827381
 21
22.572648297326332
 31
0.0
  0
ARC
  5
6E
  8
0
 62
     0
 10
24.05915420482739
 20
21.939880069180902
 30
0.0
 40
0.0300000000000011
 50
270.0
 51
0.0
  0
LINE
  5
6F
  8
0
 62
     0
 10
22.65915489433451
 20
21.9098800691809
 30
0.0
 11
24.05915420482739
 21
21.9098800691809
 31
0.0
  0
ARC
  5
70
  8
0
 62
     0
 10
22.65915489433451
 20
21.939880069180902
 30
0.0
 40
0.0300000000000011
 50
180.0
 51
270.0
  0
LINE
  5
71
  8
0
 62
     0
 10
22.629154894334508
 20
22.572635140746701
 30
0.0
 11
22.629154894334508
 21
21.939880069180902
 31
0.0
  0
ARC
  5
72
  8
0
 62
     0
 10
22.64665489433451
 20
22.572635140746701
 30
0.0
 40
0.0175000000000019
 50
0.0
 51
180.0
  0
LINE
  5
73
  8
0
 62
     0
 10
22.664154894334501
 20
21.954880069180899
 30
0.0
 11
22.664154894334501
 21
22.572635140746701
 31
0.0
  0
ARC
  5
74
  8
0
 62
     0
 10
22.67415489433451
 20
21.954880069180899
 30
0.0
 40
0.0100000000000016
 50
180.0
 51
269.99999999997959
  0
LINE
  5
75
  8
0
 62
     0
 10
24.04415420482739
 20
21.944880069180901
 30
0.0
 11
22.674154894334499
 21
21.944880069180901
 31
0.0
  0
ARC
  5
76
  8
0
 62
     0
 10
24.044154204827379
 20
21.954880069180899
 30
0.0
 40
0.0100000000000016
 50
270.00000000002041
 51
0.0
  0
LINE
  5
77
  8
0
 62
     0
 10
24.05415420482738
 20
22.572648297326332
 30
0.0
 11
24.05415420482738
 21
21.954880069180899
 31
0.0
  0
LINE
  5
78
  8
0
 10
22.746967134712911
 20
22.332409338585371
 30
0.0
 11
22.664154894334501
 21
22.36419797932734
 31
0.0
  0
ARC
  5
79
  8
0
 10
22.749654894334508
 20
22.339411191784091
 30
0.0
 40
0.0075000000000013
 50
248.99999999999849
 51
68.999999999998465
  0
LINE
  5
7A
  8
0
 10
22.664154894334501
 20
22.3802651542319
 30
0.0
 11
22.752342653956099
 21
22.346413044982821
 31
0.0
  0
LINE
  5
7B
  8
0
 10
22.664154894334501
 20
22.36419797932734
 30
0.0
 11
22.664154894334501
 21
22.3802651542319
 31
0.0
  0
LINE
  5
7C
  8
0
 10
22.752342653956099
 20
22.15838299670445
 30
0.0
 11
22.664154894334501
 21
22.192235105953522
 31
0.0
  0
ARC
  5
7D
  8
0
 10
22.749654894334508
 20
22.15138114350572
 30
0.0
 40
0.0075000000000013
 50
248.99999999999849
 51
68.999999999998465
  0
LINE
  5
7E
  8
0
 10
22.664154894334501
 20
22.176167931048958
 30
0.0
 11
22.746967134712911
 21
22.14437929030699
 31
0.0
  0
LINE
  5
7F
  8
0
 10
22.664154894334501
 20
22.192235105953522
 30
0.0
 11
22.664154894334501
 21
22.176167931048958
 31
0.0
  0
LINE
  5
80
  8
0
 10
23.971341964448971
 20
22.332409338585371
 30
0.0
 11
24.05415420482738
 21
22.36419797932734
 31
0.0
  0
ARC
  5
81
  8
0
 10
23.968654204827381
 20
22.339411191784091
 30
0.0
 40
0.0075
 50
110.9999999999762
 51
291.00000000000148
  0
LINE
  5
82
  8
0
 10
24.05415420482738
 20
22.3802651542319
 30
0.0
 11
23.96596644520579
 21
22.346413044982821
 31
0.0
  0
LINE
  5
83
  8
0
 10
24.05415420482738
 20
22.36419797932734
 30
0.0
 11
24.05415420482738
 21
22.3802651542319
 31
0.0
  0
LINE
  5
84
  8
0
 10
23.96596644520579
 20
22.15838299670445
 30
0.0
 11
24.05415420482738
 21
22.192235105953522
 31
0.0
  0
ARC
  5
85
  8
0
 10
23.968654204827381
 20
22.15138114350572
 30
0.0
 40
0.0075000000000013
 50
110.9999999999762
 51
291.00000000000148
  0
LINE
  5
86
  8
0
 10
24.05415420482738
 20
22.176167931048958
 30
0.0
 11
23.971341964448971
 21
22.14437929030699
 31
0.0
  0
LINE
  5
87
  8
0
 10
24.05415420482738
 20
22.192235105953522
 30
0.0
 11
24.05415420482738
 21
22.176167931048958
 31
0.0
  0
ENDSEC
  0
EOF
